ISO-10303-21;
HEADER;
FILE_DESCRIPTION (( 'STEP AP203' ),
    '1' );
FILE_NAME ('B270-RNDF-25.4-2.STEP',
    '2021-01-05T01:23:35',
    ( '' ),
    ( '' ),
    'SwSTEP 2.0',
    'SolidWorks 2020',
    '' );
FILE_SCHEMA (( 'CONFIG_CONTROL_DESIGN' ));
ENDSEC;

DATA;
#1 = PRODUCT_DEFINITION_SHAPE ( 'NONE', 'NONE',  #3 ) ;
#2 = APPLICATION_PROTOCOL_DEFINITION ( 'international standard', 'config_control_design', 1994, #57 ) ;
#3 = PRODUCT_DEFINITION ( 'UNKNOWN', '', #99, #152 ) ;
#4 = MECHANICAL_CONTEXT ( 'NONE', #64, 'mechanical' ) ;
#5 = COORDINATED_UNIVERSAL_TIME_OFFSET ( 8, 0, .AHEAD. ) ;
#6 = COORDINATED_UNIVERSAL_TIME_OFFSET ( 8, 0, .AHEAD. ) ;
#7 = APPROVAL_STATUS ( 'not_yet_approved' ) ;
#8 = PERSON_AND_ORGANIZATION ( #156, #24 ) ;
#9 = CARTESIAN_POINT ( 'NONE',  ( 0.000000000000000000, 0.000000000000000000, 0.000000000000000000 ) ) ;
#10 = PERSON_AND_ORGANIZATION_ROLE ( 'classification_officer' ) ;
#11 = LINE ( 'NONE', #170, #72 ) ;
#12 = CARTESIAN_POINT ( 'NONE',  ( 1.999999999999998224, 1.555301434917138433E-15, -12.69999999999999929 ) ) ;
#13 = DIRECTION ( 'NONE',  ( 0.000000000000000000, 0.000000000000000000, 1.000000000000000000 ) ) ;
#14 =( LENGTH_UNIT ( ) NAMED_UNIT ( * ) SI_UNIT ( .MILLI., .METRE. ) );
#15 = COORDINATED_UNIVERSAL_TIME_OFFSET ( 8, 0, .AHEAD. ) ;
#16 = APPROVAL_STATUS ( 'not_yet_approved' ) ;
#17 = PRODUCT_RELATED_PRODUCT_CATEGORY ( 'detail', '', ( #171 ) ) ;
#18 = COORDINATED_UNIVERSAL_TIME_OFFSET ( 8, 0, .AHEAD. ) ;
#19 = LOCAL_TIME ( 9, 23, 35.00000000000000000, #5 ) ;
#20 = ADVANCED_FACE ( 'NONE', ( #53 ), #172, .F. ) ;
#21 = APPROVAL_PERSON_ORGANIZATION ( #8, #107, #85 ) ;
#22 = PERSON_AND_ORGANIZATION ( #156, #24 ) ;
#23 = ADVANCED_FACE ( 'NONE', ( #146 ), #134, .T. ) ;
#24 = ORGANIZATION ( 'UNSPECIFIED', 'UNSPECIFIED', '' ) ;
#25 = DIRECTION ( 'NONE',  ( 0.000000000000000000, 0.000000000000000000, 1.000000000000000000 ) ) ;
#26 = ORIENTED_EDGE ( 'NONE', *, *, #88, .F. ) ;
#27 = CARTESIAN_POINT ( 'NONE',  ( -1.187907395172932594E-15, 0.000000000000000000, 0.000000000000000000 ) ) ;
#28 = CARTESIAN_POINT ( 'NONE',  ( 0.000000000000000000, 0.000000000000000000, 0.000000000000000000 ) ) ;
#29 = COORDINATED_UNIVERSAL_TIME_OFFSET ( 8, 0, .AHEAD. ) ;
#30 = CALENDAR_DATE ( 2021, 5, 1 ) ;
#31 = APPROVAL_DATE_TIME ( #90, #71 ) ;
#32 = AXIS2_PLACEMENT_3D ( 'NONE', #75, #76, #119 ) ;
#33 = PERSON_AND_ORGANIZATION ( #156, #24 ) ;
#34 = CC_DESIGN_PERSON_AND_ORGANIZATION_ASSIGNMENT ( #126, #112, ( #3 ) ) ;
#35 = DATE_AND_TIME ( #62, #123 ) ;
#36 = ORIENTED_EDGE ( 'NONE', *, *, #88, .T. ) ;
#37 = VERTEX_POINT ( 'NONE', #12 ) ;
#38 = DIRECTION ( 'NONE',  ( -1.000000000000000000, -0.000000000000000000, -0.000000000000000000 ) ) ;
#39 = AXIS2_PLACEMENT_3D ( 'NONE', #97, #153, #69 ) ;
#40 = CC_DESIGN_PERSON_AND_ORGANIZATION_ASSIGNMENT ( #120, #83, ( #99 ) ) ;
#41 = EDGE_CURVE ( 'NONE', #37, #63, #84, .T. ) ;
#42 = DIRECTION ( 'NONE',  ( 0.000000000000000000, 0.000000000000000000, 1.000000000000000000 ) ) ;
#43 = DIRECTION ( 'NONE',  ( 0.000000000000000000, 0.000000000000000000, 1.000000000000000000 ) ) ;
#44 = CARTESIAN_POINT ( 'NONE',  ( -1.187907395172932594E-15, 1.555301434917138433E-15, -12.69999999999999929 ) ) ;
#45 = UNCERTAINTY_MEASURE_WITH_UNIT (LENGTH_MEASURE( 1.000000000000000082E-05 ), #14, 'distance_accuracy_value', 'NONE');
#46 = DIRECTION ( 'NONE',  ( -1.000000000000000000, -0.000000000000000000, -0.000000000000000000 ) ) ;
#47 = VECTOR ( 'NONE', #136, 1000.000000000000000 ) ;
#48 = AXIS2_PLACEMENT_3D ( 'NONE', #131, #147, #25 ) ;
#49 = LOCAL_TIME ( 9, 23, 35.00000000000000000, #29 ) ;
#50 = EDGE_LOOP ( 'NONE', ( #93, #159 ) ) ;
#51 = AXIS2_PLACEMENT_3D ( 'NONE', #161, #133, #162 ) ;
#52 = APPROVAL_PERSON_ORGANIZATION ( #141, #71, #101 ) ;
#53 = FACE_OUTER_BOUND ( 'NONE', #50, .T. ) ;
#54 = SECURITY_CLASSIFICATION ( '', '', #144 ) ;
#55 = APPROVAL_ROLE ( '' ) ;
#56 = PLANE ( 'NONE',  #39 ) ;
#57 = APPLICATION_CONTEXT ( 'configuration controlled 3d designs of mechanical parts and assemblies' ) ;
#58 = CC_DESIGN_DATE_AND_TIME_ASSIGNMENT ( #169, #118, ( #54 ) ) ;
#59 = EDGE_CURVE ( 'NONE', #37, #92, #11, .T. ) ;
#60 = EDGE_CURVE ( 'NONE', #63, #37, #168, .T. ) ;
#61 = CC_DESIGN_APPROVAL ( #107, ( #54 ) ) ;
#62 = CALENDAR_DATE ( 2021, 5, 1 ) ;
#63 = VERTEX_POINT ( 'NONE', #167 ) ;
#64 = APPLICATION_CONTEXT ( 'configuration controlled 3d designs of mechanical parts and assemblies' ) ;
#65 = DIRECTION ( 'NONE',  ( -1.000000000000000000, -0.000000000000000000, -0.000000000000000000 ) ) ;
#66 = ADVANCED_FACE ( 'NONE', ( #109 ), #98, .T. ) ;
#67 = ORIENTED_EDGE ( 'NONE', *, *, #41, .T. ) ;
#68 =( NAMED_UNIT ( * ) SI_UNIT ( $, .STERADIAN. ) SOLID_ANGLE_UNIT ( ) );
#69 = DIRECTION ( 'NONE',  ( 0.000000000000000000, 0.000000000000000000, -1.000000000000000000 ) ) ;
#70 = LINE ( 'NONE', #151, #47 ) ;
#71 = APPROVAL ( #74, 'UNSPECIFIED' ) ;
#72 = VECTOR ( 'NONE', #38, 1000.000000000000000 ) ;
#73 = AXIS2_PLACEMENT_3D ( 'NONE', #115, #137, #80 ) ;
#74 = APPROVAL_STATUS ( 'not_yet_approved' ) ;
#75 = CARTESIAN_POINT ( 'NONE',  ( 1.999999999999998224, 0.000000000000000000, 0.000000000000000000 ) ) ;
#76 = DIRECTION ( 'NONE',  ( -1.000000000000000000, -0.000000000000000000, -0.000000000000000000 ) ) ;
#77 = CARTESIAN_POINT ( 'NONE',  ( -1.187907395172932594E-15, 0.000000000000000000, 12.69999999999999929 ) ) ;
#78 = CC_DESIGN_SECURITY_CLASSIFICATION ( #54, ( #99 ) ) ;
#79 = PERSON_AND_ORGANIZATION ( #156, #24 ) ;
#80 = DIRECTION ( 'NONE',  ( 1.000000000000000000, 0.000000000000000000, 0.000000000000000000 ) ) ;
#81 = DATE_AND_TIME ( #30, #117 ) ;
#82 = CALENDAR_DATE ( 2021, 5, 1 ) ;
#83 = PERSON_AND_ORGANIZATION_ROLE ( 'design_supplier' ) ;
#84 = CIRCLE ( 'NONE', #48, 12.69999999999999929 ) ;
#85 = APPROVAL_ROLE ( '' ) ;
#86 = APPROVAL_PERSON_ORGANIZATION ( #125, #87, #55 ) ;
#87 = APPROVAL ( #16, 'UNSPECIFIED' ) ;
#88 = EDGE_CURVE ( 'NONE', #92, #143, #148, .T. ) ;
#89 = PERSON_AND_ORGANIZATION_ROLE ( 'creator' ) ;
#90 = DATE_AND_TIME ( #116, #19 ) ;
#91 = ADVANCED_BREP_SHAPE_REPRESENTATION ( 'B270-RNDF-25.4-2', ( #132, #73 ), #157 ) ;
#92 = VERTEX_POINT ( 'NONE', #44 ) ;
#93 = ORIENTED_EDGE ( 'NONE', *, *, #60, .F. ) ;
#94 = ORIENTED_EDGE ( 'NONE', *, *, #59, .F. ) ;
#95 = CARTESIAN_POINT ( 'NONE',  ( -1.187907395172932594E-15, 0.000000000000000000, 0.000000000000000000 ) ) ;
#96 = CC_DESIGN_PERSON_AND_ORGANIZATION_ASSIGNMENT ( #79, #150, ( #171 ) ) ;
#97 = CARTESIAN_POINT ( 'NONE',  ( -5.939536975864662969E-16, 12.69999999999999929, 0.000000000000000000 ) ) ;
#98 = CYLINDRICAL_SURFACE ( 'NONE', #174, 12.69999999999999929 ) ;
#99 = PRODUCT_DEFINITION_FORMATION_WITH_SPECIFIED_SOURCE ( 'ANY', '', #171, .NOT_KNOWN. ) ;
#100 = EDGE_CURVE ( 'NONE', #143, #92, #154, .T. ) ;
#101 = APPROVAL_ROLE ( '' ) ;
#102 = DIRECTION ( 'NONE',  ( 0.000000000000000000, 0.000000000000000000, 1.000000000000000000 ) ) ;
#103 = CLOSED_SHELL ( 'NONE', ( #66, #23, #20, #110 ) ) ;
#104 = EDGE_LOOP ( 'NONE', ( #129, #106, #124, #135 ) ) ;
#105 = CC_DESIGN_APPROVAL ( #87, ( #3 ) ) ;
#106 = ORIENTED_EDGE ( 'NONE', *, *, #59, .T. ) ;
#107 = APPROVAL ( #7, 'UNSPECIFIED' ) ;
#108 = AXIS2_PLACEMENT_3D ( 'NONE', #27, #46, #42 ) ;
#109 = FACE_OUTER_BOUND ( 'NONE', #104, .T. ) ;
#110 = ADVANCED_FACE ( 'NONE', ( #140 ), #56, .F. ) ;
#111 = CALENDAR_DATE ( 2021, 5, 1 ) ;
#112 = PERSON_AND_ORGANIZATION_ROLE ( 'creator' ) ;
#113 = AXIS2_PLACEMENT_3D ( 'NONE', #9, #65, #102 ) ;
#114 = APPROVAL_DATE_TIME ( #139, #87 ) ;
#115 = CARTESIAN_POINT ( 'NONE',  ( 0.000000000000000000, 0.000000000000000000, 0.000000000000000000 ) ) ;
#116 = CALENDAR_DATE ( 2021, 5, 1 ) ;
#117 = LOCAL_TIME ( 9, 23, 35.00000000000000000, #18 ) ;
#118 = DATE_TIME_ROLE ( 'classification_date' ) ;
#119 = DIRECTION ( 'NONE',  ( 0.000000000000000000, 0.000000000000000000, 1.000000000000000000 ) ) ;
#120 = PERSON_AND_ORGANIZATION ( #156, #24 ) ;
#121 = APPROVAL_DATE_TIME ( #35, #107 ) ;
#122 = EDGE_LOOP ( 'NONE', ( #94, #67, #145, #26 ) ) ;
#123 = LOCAL_TIME ( 9, 23, 35.00000000000000000, #6 ) ;
#124 = ORIENTED_EDGE ( 'NONE', *, *, #100, .F. ) ;
#125 = PERSON_AND_ORGANIZATION ( #156, #24 ) ;
#126 = PERSON_AND_ORGANIZATION ( #156, #24 ) ;
#127 = CC_DESIGN_PERSON_AND_ORGANIZATION_ASSIGNMENT ( #22, #10, ( #54 ) ) ;
#128 =( NAMED_UNIT ( * ) PLANE_ANGLE_UNIT ( ) SI_UNIT ( $, .RADIAN. ) );
#129 = ORIENTED_EDGE ( 'NONE', *, *, #60, .T. ) ;
#130 = SHAPE_DEFINITION_REPRESENTATION ( #1, #91 ) ;
#131 = CARTESIAN_POINT ( 'NONE',  ( 1.999999999999998224, 0.000000000000000000, 0.000000000000000000 ) ) ;
#132 = MANIFOLD_SOLID_BREP ( 'Ðý×', #103 ) ;
#133 = DIRECTION ( 'NONE',  ( -1.000000000000000000, 0.000000000000000000, -0.000000000000000000 ) ) ;
#134 = CYLINDRICAL_SURFACE ( 'NONE', #113, 12.69999999999999929 ) ;
#135 = ORIENTED_EDGE ( 'NONE', *, *, #155, .F. ) ;
#136 = DIRECTION ( 'NONE',  ( -1.000000000000000000, -0.000000000000000000, -0.000000000000000000 ) ) ;
#137 = DIRECTION ( 'NONE',  ( 0.000000000000000000, 0.000000000000000000, 1.000000000000000000 ) ) ;
#138 = CC_DESIGN_DATE_AND_TIME_ASSIGNMENT ( #81, #166, ( #3 ) ) ;
#139 = DATE_AND_TIME ( #111, #160 ) ;
#140 = FACE_OUTER_BOUND ( 'NONE', #163, .T. ) ;
#141 = PERSON_AND_ORGANIZATION ( #156, #24 ) ;
#142 = CC_DESIGN_APPROVAL ( #71, ( #99 ) ) ;
#143 = VERTEX_POINT ( 'NONE', #77 ) ;
#144 = SECURITY_CLASSIFICATION_LEVEL ( 'unclassified' ) ;
#145 = ORIENTED_EDGE ( 'NONE', *, *, #155, .T. ) ;
#146 = FACE_OUTER_BOUND ( 'NONE', #122, .T. ) ;
#147 = DIRECTION ( 'NONE',  ( -1.000000000000000000, -0.000000000000000000, -0.000000000000000000 ) ) ;
#148 = CIRCLE ( 'NONE', #108, 12.69999999999999929 ) ;
#149 = ORIENTED_EDGE ( 'NONE', *, *, #100, .T. ) ;
#150 = PERSON_AND_ORGANIZATION_ROLE ( 'design_owner' ) ;
#151 = CARTESIAN_POINT ( 'NONE',  ( 0.000000000000000000, 0.000000000000000000, 12.69999999999999929 ) ) ;
#152 = DESIGN_CONTEXT ( 'detailed design', #57, 'design' ) ;
#153 = DIRECTION ( 'NONE',  ( 1.000000000000000000, 0.000000000000000000, 0.000000000000000000 ) ) ;
#154 = CIRCLE ( 'NONE', #164, 12.69999999999999929 ) ;
#155 = EDGE_CURVE ( 'NONE', #63, #143, #70, .T. ) ;
#156 = PERSON ( 'UNSPECIFIED', 'UNSPECIFIED', 'UNSPECIFIED', ('UNSPECIFIED'), ('UNSPECIFIED'), ('UNSPECIFIED') ) ;
#157 =( GEOMETRIC_REPRESENTATION_CONTEXT ( 3 ) GLOBAL_UNCERTAINTY_ASSIGNED_CONTEXT ( ( #45 ) ) GLOBAL_UNIT_ASSIGNED_CONTEXT ( ( #14, #128, #68 ) ) REPRESENTATION_CONTEXT ( 'NONE', 'WORKASPACE' ) );
#158 = CC_DESIGN_PERSON_AND_ORGANIZATION_ASSIGNMENT ( #33, #89, ( #99 ) ) ;
#159 = ORIENTED_EDGE ( 'NONE', *, *, #41, .F. ) ;
#160 = LOCAL_TIME ( 9, 23, 35.00000000000000000, #15 ) ;
#161 = CARTESIAN_POINT ( 'NONE',  ( 1.999999999999999112, 12.69999999999999929, 0.000000000000000000 ) ) ;
#162 = DIRECTION ( 'NONE',  ( -0.000000000000000000, 0.000000000000000000, 1.000000000000000000 ) ) ;
#163 = EDGE_LOOP ( 'NONE', ( #149, #36 ) ) ;
#164 = AXIS2_PLACEMENT_3D ( 'NONE', #95, #173, #13 ) ;
#165 = DIRECTION ( 'NONE',  ( -1.000000000000000000, -0.000000000000000000, -0.000000000000000000 ) ) ;
#166 = DATE_TIME_ROLE ( 'creation_date' ) ;
#167 = CARTESIAN_POINT ( 'NONE',  ( 1.999999999999998224, 0.000000000000000000, 12.69999999999999929 ) ) ;
#168 = CIRCLE ( 'NONE', #32, 12.69999999999999929 ) ;
#169 = DATE_AND_TIME ( #82, #49 ) ;
#170 = CARTESIAN_POINT ( 'NONE',  ( 0.000000000000000000, 1.555301434917138433E-15, -12.69999999999999929 ) ) ;
#171 = PRODUCT ( 'B270-RNDF-25.4-2', 'B270-RNDF-25.4-2', '', ( #4 ) ) ;
#172 = PLANE ( 'NONE',  #51 ) ;
#173 = DIRECTION ( 'NONE',  ( -1.000000000000000000, -0.000000000000000000, -0.000000000000000000 ) ) ;
#174 = AXIS2_PLACEMENT_3D ( 'NONE', #28, #165, #43 ) ;
#175 = APPLICATION_PROTOCOL_DEFINITION ( 'international standard', 'config_control_design', 1994, #64 ) ;
ENDSEC;
END-ISO-10303-21;
